5 Famous Repetitive Classic Blues Rock Metal Guitar Licks"/>

5 Famous Repetitive Classic Blues Rock Metal Guitar Licks

Photo by Igor Giamoniano

When I was a kid I used to transcribe solos of Stevie Ray Vaughan, Guns ‘n Roses, Led Zeppelin, Metallica, etc. And all those famous blues, rock, metal guitar players had one thing in common. They used repetitive guitar licks.

Repetitive licks create a sound that makes it seem like you’re playing really fast. Well maybe you do :) Besides that they just sound really cool. Those licks have made history.

The trick is to use them occasionally, but certainly not too often assuming that you want your solos to sound fresh and don’t want people to get bored out of their minds.

Use them in the middle of your solos when you are working towards a climax or you feel like you’re on a roll. Something like that.

The best way is to listen to those rock n’ roll guitar players and see how they incorporate them into their solos.

Try not just to copy these licks but also change them around a bit. Create your own repetitive licks. Explore and evolve those licks.

These licks are played using A minor or A pentatonic scale.

You can use them over an Am chord progression or a blues rhythm in the key of A.

I always keep repeating this, because I think it’s important. First play the licks slow and make sure you can play each lick perfectly clear before you build up speed.

Good luck!

 
LICK #1(A minor/pentatonic)
 
e:------5-5------5-5------5-5------5-5---|-------------------------------|
B:--8bu------8bu------8bu------8bu-------|-------------------------------|
G:*-------------------------------------*|-------------------------------|
D:*-------------------------------------*|-------------------------------|
A:---------------------------------------|-------------------------------|
E:---------------------------------------|-------------------------------|
 
LICK #2(A minor/pentatonic)
 
e:--------5-------5-------5-------5---|----------------------------------|
B:------5-------5-------5-------5-----|----------------------------------|
G:*-7bu-----7bu-----7bu-----7bu------*|----------------------------------|
D:*----------------------------------*|----------------------------------|
A:------------------------------------|----------------------------------|
E:------------------------------------|----------------------------------|
 
LICK #3(A minor/pentatonic)
 
e:------5--------5--------5--------5-----|-------------------------------|
B:--8bu---5--8bu---5--8bu---5--8bu---5---|-------------------------------|
G:*-------------------------------------*|-------------------------------|
D:*-------------------------------------*|-------------------------------|
A:---------------------------------------|-------------------------------|
E:---------------------------------------|-------------------------------|
 
LICK #4(A minor/pentatonic)
 
e:------5-5-----5-5-----5-5-----5-5---|----------------------------------|
B:------5-5-----5-5-----5-5-----5-5---|----------------------------------|
G:*-7bu-----7bu-----7bu-----7bu------*|----------------------------------|
D:*----------------------------------*|----------------------------------|
A:------------------------------------|----------------------------------|
E:------------------------------------|----------------------------------|
 
LICK #5(A minor/pentatonic)
 
e:--------5-----------5-----------5-----------5-------|------------------|
B:------5---8P5-----5---8P5-----5---8P5-----5---8p5---|------------------|
G:*-7bu---------7bu---------7bu---------7bu----------*|------------------|
D:*--------------------------------------------------*|------------------|
A:----------------------------------------------------|------------------|
E:----------------------------------------------------|------------------|
 
 

If you learned something out of this post please share it with your friends on Twitter, Facebook or Stumbleupon.
I’d really appreciate it.

Thanks a lot.
Klaus Crow

If you like this post, please share it on Stumbleupon. I'd appreciate it.

    4 Responses to “5 Famous Repetitive Classic Blues Rock Metal Guitar Licks

    Leave a Comment

    Subscribe and receive free post updates and the "150 Essential Chords Ebook" by Email or RSS

     
     
     
     
     
     
     
     
     
     
     
     
     
     
     
     

    "150 Essential Chords" FREE Ebook

    Get your copy right here